Print Page | Close Window

Acemiler için basit bir tab daha-Cambaz

Printed From: Bilginin Adresi
Category: Müzik Dünyası
Forum Name: Enstrümanlar
Forum Description: Gitar,Keman,Piyano vb.
URL: http://www.bilgineferi.com/forum/forum_posts.asp?TID=1869
Printed Date: 26-09-2020 at 19:01


Topic: Acemiler için basit bir tab daha-Cambaz
Posted By: Hawk
Subject: Acemiler için basit bir tab daha-Cambaz
Date Posted: 26-10-2006 at 18:40
 

Mor ve Ötesi - Cambaz (gitar solo)


e-------2-0-0-----------3-2-2-0-0-------2-0-0-------------
b-0-1-0-------3-3-1-1-0-----------3-1-0-------4-4-1-1-0-0-
g---------------------------------------------------------
d---------------------------------------------------------
a---------------------------------------------------------
e---------------------------------------------------------

 

 

e-------2-0-0-----------3-2-2-0-0-------2-0-0-----------0-
b-0-1-0-------3-3-1-1-0-----------3-1-0-------4-4-1-1-4---
g---------------------------------------------------------
d---------------------------------------------------------
a---------------------------------------------------------
e---------------------------------------------------------

 



Print Page | Close Window